ISO-10303-21;
HEADER;
FILE_DESCRIPTION (( 'STEP AP203' ),
    '1' );
FILE_NAME ('Q-QZWP-R4-25.4-780-M.STEP',
    '2020-12-23T01:28:10',
    ( '' ),
    ( '' ),
    'SwSTEP 2.0',
    'SolidWorks 2020',
    '' );
FILE_SCHEMA (( 'CONFIG_CONTROL_DESIGN' ));
ENDSEC;

DATA;
#1 = PERSON_AND_ORGANIZATION ( #84, #154 ) ;
#2 = DESIGN_CONTEXT ( 'detailed design', #44, 'design' ) ;
#3 =( GEOMETRIC_REPRESENTATION_CONTEXT ( 3 ) GLOBAL_UNCERTAINTY_ASSIGNED_CONTEXT ( ( #103 ) ) GLOBAL_UNIT_ASSIGNED_CONTEXT ( ( #156, #60, #51 ) ) REPRESENTATION_CONTEXT ( 'NONE', 'WORKASPACE' ) );
#4 = EDGE_CURVE ( 'NONE', #131, #88, #71, .T. ) ;
#5 = CARTESIAN_POINT ( 'NONE',  ( -1.614212418857619014, 1.836970198721029589E-15, -15.00000000000000000 ) ) ;
#6 = CARTESIAN_POINT ( 'NONE',  ( 3.000000000000000000, 0.000000000000000000, 15.00000000000000000 ) ) ;
#7 = EDGE_CURVE ( 'NONE', #90, #91, #72, .T. ) ;
#8 = FACE_OUTER_BOUND ( 'NONE', #38, .T. ) ;
#9 = APPROVAL ( #13, 'UNSPECIFIED' ) ;
#10 = LOCAL_TIME ( 9, 28, 10.00000000000000000, #133 ) ;
#11 = CARTESIAN_POINT ( 'NONE',  ( -3.000000000000000000, 0.000000000000000000, 15.00000000000000000 ) ) ;
#12 = SECURITY_CLASSIFICATION_LEVEL ( 'unclassified' ) ;
#13 = APPROVAL_STATUS ( 'not_yet_approved' ) ;
#14 = AXIS2_PLACEMENT_3D ( 'NONE', #68, #138, #106 ) ;
#15 = CC_DESIGN_APPROVAL ( #70, ( #139 ) ) ;
#16 = CC_DESIGN_PERSON_AND_ORGANIZATION_ASSIGNMENT ( #174, #53, ( #175 ) ) ;
#17 = DATE_TIME_ROLE ( 'creation_date' ) ;
#18 = CC_DESIGN_APPROVAL ( #31, ( #27 ) ) ;
#19 = CARTESIAN_POINT ( 'NONE',  ( 3.000000000000000000, 0.000000000000000000, 0.000000000000000000 ) ) ;
#20 = ADVANCED_FACE ( 'NONE', ( #92 ), #119, .F. ) ;
#21 = CARTESIAN_POINT ( 'NONE',  ( 3.000000000000000000, 1.836970198721029589E-15, -15.00000000000000000 ) ) ;
#22 = DIRECTION ( 'NONE',  ( -1.000000000000000000, -0.000000000000000000, -0.000000000000000000 ) ) ;
#23 = CARTESIAN_POINT ( 'NONE',  ( 3.000000000000000888, 12.69999999999999929, 0.000000000000000000 ) ) ;
#24 = ORIENTED_EDGE ( 'NONE', *, *, #61, .T. ) ;
#25 = CYLINDRICAL_SURFACE ( 'NONE', #26, 15.00000000000000000 ) ;
#26 = AXIS2_PLACEMENT_3D ( 'NONE', #129, #117, #142 ) ;
#27 = SECURITY_CLASSIFICATION ( '', '', #12 ) ;
#28 = CALENDAR_DATE ( 2020, 23, 12 ) ;
#29 = COORDINATED_UNIVERSAL_TIME_OFFSET ( 8, 0, .AHEAD. ) ;
#30 = DATE_AND_TIME ( #79, #144 ) ;
#31 = APPROVAL ( #96, 'UNSPECIFIED' ) ;
#32 = CC_DESIGN_PERSON_AND_ORGANIZATION_ASSIGNMENT ( #105, #52, ( #175 ) ) ;
#33 = AXIS2_PLACEMENT_3D ( 'NONE', #36, #57, #113 ) ;
#34 = ORIENTED_EDGE ( 'NONE', *, *, #61, .F. ) ;
#35 = DIRECTION ( 'NONE',  ( -1.000000000000000000, -0.000000000000000000, -0.000000000000000000 ) ) ;
#36 = CARTESIAN_POINT ( 'NONE',  ( -3.000000000000000888, 12.69999999999999929, 0.000000000000000000 ) ) ;
#37 = EDGE_LOOP ( 'NONE', ( #159, #169 ) ) ;
#38 = EDGE_LOOP ( 'NONE', ( #24, #146, #111, #85 ) ) ;
#39 = COORDINATED_UNIVERSAL_TIME_OFFSET ( 8, 0, .AHEAD. ) ;
#40 = CC_DESIGN_SECURITY_CLASSIFICATION ( #27, ( #175 ) ) ;
#41 = SHAPE_DEFINITION_REPRESENTATION ( #59, #134 ) ;
#42 = APPLICATION_PROTOCOL_DEFINITION ( 'international standard', 'config_control_design', 1994, #44 ) ;
#43 = MECHANICAL_CONTEXT ( 'NONE', #97, 'mechanical' ) ;
#44 = APPLICATION_CONTEXT ( 'configuration controlled 3d designs of mechanical parts and assemblies' ) ;
#45 = AXIS2_PLACEMENT_3D ( 'NONE', #102, #64, #172 ) ;
#46 = LOCAL_TIME ( 9, 28, 10.00000000000000000, #151 ) ;
#47 = EDGE_CURVE ( 'NONE', #88, #91, #157, .T. ) ;
#48 = PRODUCT_RELATED_PRODUCT_CATEGORY ( 'detail', '', ( #116 ) ) ;
#49 = DIRECTION ( 'NONE',  ( -1.000000000000000000, 0.000000000000000000, -0.000000000000000000 ) ) ;
#50 = ORIENTED_EDGE ( 'NONE', *, *, #136, .F. ) ;
#51 =( NAMED_UNIT ( * ) SI_UNIT ( $, .STERADIAN. ) SOLID_ANGLE_UNIT ( ) );
#52 = PERSON_AND_ORGANIZATION_ROLE ( 'design_supplier' ) ;
#53 = PERSON_AND_ORGANIZATION_ROLE ( 'creator' ) ;
#54 = PERSON_AND_ORGANIZATION ( #84, #154 ) ;
#55 = VECTOR ( 'NONE', #130, 1000.000000000000000 ) ;
#56 = CC_DESIGN_DATE_AND_TIME_ASSIGNMENT ( #152, #163, ( #27 ) ) ;
#57 = DIRECTION ( 'NONE',  ( 1.000000000000000000, 0.000000000000000000, 0.000000000000000000 ) ) ;
#58 = DIRECTION ( 'NONE',  ( -1.000000000000000000, -0.000000000000000000, -0.000000000000000000 ) ) ;
#59 = PRODUCT_DEFINITION_SHAPE ( 'NONE', 'NONE',  #139 ) ;
#60 =( NAMED_UNIT ( * ) PLANE_ANGLE_UNIT ( ) SI_UNIT ( $, .RADIAN. ) );
#61 = EDGE_CURVE ( 'NONE', #131, #90, #81, .T. ) ;
#62 = DIRECTION ( 'NONE',  ( 0.000000000000000000, 0.000000000000000000, 1.000000000000000000 ) ) ;
#63 = LOCAL_TIME ( 9, 28, 10.00000000000000000, #29 ) ;
#64 = DIRECTION ( 'NONE',  ( -1.000000000000000000, -0.000000000000000000, -0.000000000000000000 ) ) ;
#65 = APPROVAL_ROLE ( '' ) ;
#66 = DATE_AND_TIME ( #165, #63 ) ;
#67 = ADVANCED_FACE ( 'NONE', ( #87 ), #75, .T. ) ;
#68 = CARTESIAN_POINT ( 'NONE',  ( 0.000000000000000000, 0.000000000000000000, 0.000000000000000000 ) ) ;
#69 = CIRCLE ( 'NONE', #94, 15.00000000000000000 ) ;
#70 = APPROVAL ( #162, 'UNSPECIFIED' ) ;
#71 = LINE ( 'NONE', #128, #125 ) ;
#72 = LINE ( 'NONE', #5, #55 ) ;
#73 = DIRECTION ( 'NONE',  ( -1.000000000000000000, -0.000000000000000000, -0.000000000000000000 ) ) ;
#74 = ORIENTED_EDGE ( 'NONE', *, *, #4, .T. ) ;
#75 = CYLINDRICAL_SURFACE ( 'NONE', #45, 15.00000000000000000 ) ;
#76 = AXIS2_PLACEMENT_3D ( 'NONE', #23, #49, #140 ) ;
#77 = ADVANCED_FACE ( 'NONE', ( #8 ), #25, .T. ) ;
#78 = DATE_AND_TIME ( #28, #10 ) ;
#79 = CALENDAR_DATE ( 2020, 23, 12 ) ;
#80 = APPROVAL_DATE_TIME ( #66, #70 ) ;
#81 = CIRCLE ( 'NONE', #167, 15.00000000000000000 ) ;
#82 = PERSON_AND_ORGANIZATION ( #84, #154 ) ;
#83 = APPROVAL_DATE_TIME ( #30, #31 ) ;
#84 = PERSON ( 'UNSPECIFIED', 'UNSPECIFIED', 'UNSPECIFIED', ('UNSPECIFIED'), ('UNSPECIFIED'), ('UNSPECIFIED') ) ;
#85 = ORIENTED_EDGE ( 'NONE', *, *, #4, .F. ) ;
#86 = ORIENTED_EDGE ( 'NONE', *, *, #155, .F. ) ;
#87 = FACE_OUTER_BOUND ( 'NONE', #143, .T. ) ;
#88 = VERTEX_POINT ( 'NONE', #11 ) ;
#89 = CC_DESIGN_PERSON_AND_ORGANIZATION_ASSIGNMENT ( #82, #124, ( #139 ) ) ;
#90 = VERTEX_POINT ( 'NONE', #21 ) ;
#91 = VERTEX_POINT ( 'NONE', #171 ) ;
#92 = FACE_OUTER_BOUND ( 'NONE', #37, .T. ) ;
#93 = CC_DESIGN_PERSON_AND_ORGANIZATION_ASSIGNMENT ( #148, #161, ( #27 ) ) ;
#94 = AXIS2_PLACEMENT_3D ( 'NONE', #132, #58, #160 ) ;
#95 = APPROVAL_PERSON_ORGANIZATION ( #107, #31, #164 ) ;
#96 = APPROVAL_STATUS ( 'not_yet_approved' ) ;
#97 = APPLICATION_CONTEXT ( 'configuration controlled 3d designs of mechanical parts and assemblies' ) ;
#98 = APPROVAL_ROLE ( '' ) ;
#99 = CC_DESIGN_DATE_AND_TIME_ASSIGNMENT ( #173, #17, ( #139 ) ) ;
#100 = APPROVAL_PERSON_ORGANIZATION ( #54, #70, #98 ) ;
#101 = DIRECTION ( 'NONE',  ( 0.000000000000000000, 0.000000000000000000, 1.000000000000000000 ) ) ;
#102 = CARTESIAN_POINT ( 'NONE',  ( -1.614212418857619014, 0.000000000000000000, 0.000000000000000000 ) ) ;
#103 = UNCERTAINTY_MEASURE_WITH_UNIT (LENGTH_MEASURE( 1.000000000000000082E-05 ), #156, 'distance_accuracy_value', 'NONE');
#104 = ORIENTED_EDGE ( 'NONE', *, *, #155, .T. ) ;
#105 = PERSON_AND_ORGANIZATION ( #84, #154 ) ;
#106 = DIRECTION ( 'NONE',  ( 1.000000000000000000, 0.000000000000000000, 0.000000000000000000 ) ) ;
#107 = PERSON_AND_ORGANIZATION ( #84, #154 ) ;
#108 = PERSON_AND_ORGANIZATION ( #84, #154 ) ;
#109 = CC_DESIGN_APPROVAL ( #9, ( #175 ) ) ;
#110 = CLOSED_SHELL ( 'NONE', ( #77, #114, #67, #20 ) ) ;
#111 = ORIENTED_EDGE ( 'NONE', *, *, #47, .F. ) ;
#112 = AXIS2_PLACEMENT_3D ( 'NONE', #145, #35, #118 ) ;
#113 = DIRECTION ( 'NONE',  ( 0.000000000000000000, 0.000000000000000000, -1.000000000000000000 ) ) ;
#114 = ADVANCED_FACE ( 'NONE', ( #158 ), #170, .F. ) ;
#115 = DIRECTION ( 'NONE',  ( -1.000000000000000000, -0.000000000000000000, -0.000000000000000000 ) ) ;
#116 = PRODUCT ( 'Q-QZWP-R4-25.4-780-M', 'Q-QZWP-R4-25.4-780-M', '', ( #43 ) ) ;
#117 = DIRECTION ( 'NONE',  ( -1.000000000000000000, -0.000000000000000000, -0.000000000000000000 ) ) ;
#118 = DIRECTION ( 'NONE',  ( 0.000000000000000000, 0.000000000000000000, 1.000000000000000000 ) ) ;
#119 = PLANE ( 'NONE',  #33 ) ;
#120 = CALENDAR_DATE ( 2020, 23, 12 ) ;
#121 = APPLICATION_PROTOCOL_DEFINITION ( 'international standard', 'config_control_design', 1994, #97 ) ;
#122 = MANIFOLD_SOLID_BREP ( 'Ðý×', #110 ) ;
#123 = APPROVAL_DATE_TIME ( #78, #9 ) ;
#124 = PERSON_AND_ORGANIZATION_ROLE ( 'creator' ) ;
#125 = VECTOR ( 'NONE', #73, 1000.000000000000000 ) ;
#126 = AXIS2_PLACEMENT_3D ( 'NONE', #19, #115, #62 ) ;
#127 = ORIENTED_EDGE ( 'NONE', *, *, #7, .F. ) ;
#128 = CARTESIAN_POINT ( 'NONE',  ( -1.614212418857619014, 0.000000000000000000, 15.00000000000000000 ) ) ;
#129 = CARTESIAN_POINT ( 'NONE',  ( -1.614212418857619014, 0.000000000000000000, 0.000000000000000000 ) ) ;
#130 = DIRECTION ( 'NONE',  ( -1.000000000000000000, -0.000000000000000000, -0.000000000000000000 ) ) ;
#131 = VERTEX_POINT ( 'NONE', #6 ) ;
#132 = CARTESIAN_POINT ( 'NONE',  ( -3.000000000000000000, 0.000000000000000000, 0.000000000000000000 ) ) ;
#133 = COORDINATED_UNIVERSAL_TIME_OFFSET ( 8, 0, .AHEAD. ) ;
#134 = ADVANCED_BREP_SHAPE_REPRESENTATION ( 'Q-QZWP-R4-25.4-780-M', ( #122, #14 ), #3 ) ;
#135 = PERSON_AND_ORGANIZATION_ROLE ( 'design_owner' ) ;
#136 = EDGE_CURVE ( 'NONE', #91, #88, #69, .T. ) ;
#137 = CALENDAR_DATE ( 2020, 23, 12 ) ;
#138 = DIRECTION ( 'NONE',  ( 0.000000000000000000, 0.000000000000000000, 1.000000000000000000 ) ) ;
#139 = PRODUCT_DEFINITION ( 'UNKNOWN', '', #175, #2 ) ;
#140 = DIRECTION ( 'NONE',  ( -0.000000000000000000, 0.000000000000000000, 1.000000000000000000 ) ) ;
#141 = EDGE_LOOP ( 'NONE', ( #34, #86 ) ) ;
#142 = DIRECTION ( 'NONE',  ( 0.000000000000000000, 0.000000000000000000, 1.000000000000000000 ) ) ;
#143 = EDGE_LOOP ( 'NONE', ( #127, #104, #74, #50 ) ) ;
#144 = LOCAL_TIME ( 9, 28, 10.00000000000000000, #150 ) ;
#145 = CARTESIAN_POINT ( 'NONE',  ( -3.000000000000000000, 0.000000000000000000, 0.000000000000000000 ) ) ;
#146 = ORIENTED_EDGE ( 'NONE', *, *, #7, .T. ) ;
#147 = CARTESIAN_POINT ( 'NONE',  ( 3.000000000000000000, 0.000000000000000000, 0.000000000000000000 ) ) ;
#148 = PERSON_AND_ORGANIZATION ( #84, #154 ) ;
#149 = LOCAL_TIME ( 9, 28, 10.00000000000000000, #39 ) ;
#150 = COORDINATED_UNIVERSAL_TIME_OFFSET ( 8, 0, .AHEAD. ) ;
#151 = COORDINATED_UNIVERSAL_TIME_OFFSET ( 8, 0, .AHEAD. ) ;
#152 = DATE_AND_TIME ( #137, #149 ) ;
#153 = CC_DESIGN_PERSON_AND_ORGANIZATION_ASSIGNMENT ( #108, #135, ( #116 ) ) ;
#154 = ORGANIZATION ( 'UNSPECIFIED', 'UNSPECIFIED', '' ) ;
#155 = EDGE_CURVE ( 'NONE', #90, #131, #168, .T. ) ;
#156 =( LENGTH_UNIT ( ) NAMED_UNIT ( * ) SI_UNIT ( .MILLI., .METRE. ) );
#157 = CIRCLE ( 'NONE', #112, 15.00000000000000000 ) ;
#158 = FACE_OUTER_BOUND ( 'NONE', #141, .T. ) ;
#159 = ORIENTED_EDGE ( 'NONE', *, *, #47, .T. ) ;
#160 = DIRECTION ( 'NONE',  ( 0.000000000000000000, 0.000000000000000000, 1.000000000000000000 ) ) ;
#161 = PERSON_AND_ORGANIZATION_ROLE ( 'classification_officer' ) ;
#162 = APPROVAL_STATUS ( 'not_yet_approved' ) ;
#163 = DATE_TIME_ROLE ( 'classification_date' ) ;
#164 = APPROVAL_ROLE ( '' ) ;
#165 = CALENDAR_DATE ( 2020, 23, 12 ) ;
#166 = APPROVAL_PERSON_ORGANIZATION ( #1, #9, #65 ) ;
#167 = AXIS2_PLACEMENT_3D ( 'NONE', #147, #22, #101 ) ;
#168 = CIRCLE ( 'NONE', #126, 15.00000000000000000 ) ;
#169 = ORIENTED_EDGE ( 'NONE', *, *, #136, .T. ) ;
#170 = PLANE ( 'NONE',  #76 ) ;
#171 = CARTESIAN_POINT ( 'NONE',  ( -3.000000000000000000, 1.836970198721029589E-15, -15.00000000000000000 ) ) ;
#172 = DIRECTION ( 'NONE',  ( 0.000000000000000000, 0.000000000000000000, 1.000000000000000000 ) ) ;
#173 = DATE_AND_TIME ( #120, #46 ) ;
#174 = PERSON_AND_ORGANIZATION ( #84, #154 ) ;
#175 = PRODUCT_DEFINITION_FORMATION_WITH_SPECIFIED_SOURCE ( 'ANY', '', #116, .NOT_KNOWN. ) ;
ENDSEC;
END-ISO-10303-21;
